Tokio hotel forum
Vous souhaitez réagir à ce message ? Créez un compte en quelques clics ou connectez-vous pour continuer.

Tokio hotel forum

Forum Français Tokio hotel
 
AccueilRechercherS'enregistrerConnexion
Le Deal du moment : -35%
-35% sur les lunettes de soleil audio Bose Frames Rondo
Voir le deal
149.99 €

 

 partitions/Tablatures

Aller en bas 
AuteurMessage
tokioceane

tokioceane

Messages : 44
Date d'inscription : 18/07/2007
Age : 26
Localisation : devant mon ordi

partitions/Tablatures Empty
MessageSujet: partitions/Tablatures   partitions/Tablatures Icon_minitimeMer 18 Juil - 18:35

je vous conseil ce site :http://www.tapartoche.com/chanteur.php?id=1&nom=tokio-hotel
vous pourrez y trouver beaucoup de partition de Tokio Hotel, de plus sont disponible pour beaucoup d'instruments!
BONNE VISITE!!
par contre je cherche la partition de "in die Nacht" pour piano s.v.p.!
Revenir en haut Aller en bas
http://ichliebeTH26.skyblog.com
x-s0onia21-x

x-s0onia21-x

Messages : 52
Date d'inscription : 18/07/2007
Age : 31
Localisation : Lille (59)

partitions/Tablatures Empty
MessageSujet: Merci ;)   partitions/Tablatures Icon_minitimeMer 18 Juil - 18:55

Merci beaucoup! Moi qui fait du piano sa m'aide beaucoup ^^
Revenir en haut Aller en bas
http://fic-th-fs.skyblog.com
tokioceane

tokioceane

Messages : 44
Date d'inscription : 18/07/2007
Age : 26
Localisation : devant mon ordi

partitions/Tablatures Empty
MessageSujet: Re: partitions/Tablatures   partitions/Tablatures Icon_minitimeMer 18 Juil - 18:57

De rien, moi aussi je fais du piano et j'étais super contente de trouver ce site ^^
Revenir en haut Aller en bas
http://ichliebeTH26.skyblog.com
dow-th

dow-th

Messages : 68
Date d'inscription : 17/07/2007
Age : 27
Localisation : 94120

partitions/Tablatures Empty
MessageSujet: Re: partitions/Tablatures   partitions/Tablatures Icon_minitimeMer 18 Juil - 19:06

désolé j'ai cherché mais je n'ai pas trouvé la partition de In die nacht



sorry...,
Revenir en haut Aller en bas
http://e-monsite.com/tokio--hotel
tokioceane

tokioceane

Messages : 44
Date d'inscription : 18/07/2007
Age : 26
Localisation : devant mon ordi

partitions/Tablatures Empty
MessageSujet: Re: partitions/Tablatures   partitions/Tablatures Icon_minitimeMer 18 Juil - 19:40

merci quand même
de toute façon même si je trouve pas In die Nacht j'ai plain de partitions que je peux jouer j'ai le choix lol!
Revenir en haut Aller en bas
http://ichliebeTH26.skyblog.com
bartrockeur94

bartrockeur94

Messages : 18
Date d'inscription : 19/07/2007
Age : 27
Localisation : à Malte avec le soleil et les nanas

partitions/Tablatures Empty
MessageSujet: Re: partitions/Tablatures   partitions/Tablatures Icon_minitimeJeu 19 Juil - 23:25

moi j'ai l'intro de "in die nacht" mais à la guitare.. dommage..
Revenir en haut Aller en bas
x-s0onia21-x

x-s0onia21-x

Messages : 52
Date d'inscription : 18/07/2007
Age : 31
Localisation : Lille (59)

partitions/Tablatures Empty
MessageSujet: Re: partitions/Tablatures   partitions/Tablatures Icon_minitimeJeu 19 Juil - 23:37

Citation :
bartrockeur94

moi j'ai l'intro de "in die nacht" mais à la guitare.. dommage..

Tu veux bien me donner les notes de l'intro de guitar même si c'est que le début! En clé de sol ou en clé de fa ou sinon clé d'ut 3ème ou 4ème je sais lire les 4 tu as le choix ^^ Mdrr! Tu poura préssisé le nom de la clé stp ? Merci Wink
Revenir en haut Aller en bas
http://fic-th-fs.skyblog.com
bartrockeur94

bartrockeur94

Messages : 18
Date d'inscription : 19/07/2007
Age : 27
Localisation : à Malte avec le soleil et les nanas

partitions/Tablatures Empty
MessageSujet: Re: partitions/Tablatures   partitions/Tablatures Icon_minitimeVen 20 Juil - 12:36

désolé mais je n'écris qu'en tablature, tu sais les lire?
Revenir en haut Aller en bas
dow-th

dow-th

Messages : 68
Date d'inscription : 17/07/2007
Age : 27
Localisation : 94120

partitions/Tablatures Empty
MessageSujet: Re: partitions/Tablatures   partitions/Tablatures Icon_minitimeVen 20 Juil - 12:45

aiiee si tu lui écrie en tablature alors qu'elle joue du piano elle va galerer la pauvre!!!!

_________________
partitions/Tablatures 1184690583_680344836_small
Tout vien à point à qui sait attendre...
Revenir en haut Aller en bas
http://e-monsite.com/tokio--hotel
x-s0onia21-x

x-s0onia21-x

Messages : 52
Date d'inscription : 18/07/2007
Age : 31
Localisation : Lille (59)

partitions/Tablatures Empty
MessageSujet: :s   partitions/Tablatures Icon_minitimeVen 20 Juil - 14:17

C'est klr ke jvé galéré !! Lool ^^ Dzl je sais pas lire les tablatures mdrr !
C'est pas grave au pire j'essais de trouV a l'oreille mais c'est pa gagné --'
Ptdrr Merci quand même Wink
Revenir en haut Aller en bas
http://fic-th-fs.skyblog.com
lovedebill94



Messages : 13
Date d'inscription : 17/07/2007
Age : 28
Localisation : 94120

partitions/Tablatures Empty
MessageSujet: Re: partitions/Tablatures   partitions/Tablatures Icon_minitimeVen 20 Juil - 16:33

moi jarrive pas a faire de la guitare Sad
Revenir en haut Aller en bas
bartrockeur94

bartrockeur94

Messages : 18
Date d'inscription : 19/07/2007
Age : 27
Localisation : à Malte avec le soleil et les nanas

partitions/Tablatures Empty
MessageSujet: Re: partitions/Tablatures   partitions/Tablatures Icon_minitimeVen 20 Juil - 19:50

si t'arrive pas prends des cours.

dsl pour "in die nacht" mais moi je l'ai bien trouver à l'oreille à la guitare
alors tu devrai y arriver au piano!!

sur ce je vais terminer la tab de durch den Monsun!!
Revenir en haut Aller en bas
t0kii0h0t3l



Messages : 3
Date d'inscription : 20/07/2007

partitions/Tablatures Empty
MessageSujet: Re: partitions/Tablatures   partitions/Tablatures Icon_minitimeVen 20 Juil - 20:16

bartrockeur94 a écrit:
moi j'ai l'intro de "in die nacht" mais à la guitare.. dommage..

Moi je ve biien l'iintro de in die nacht a la guitare stp merci Wink
Revenir en haut Aller en bas
dow-th

dow-th

Messages : 68
Date d'inscription : 17/07/2007
Age : 27
Localisation : 94120

partitions/Tablatures Empty
MessageSujet: Re: partitions/Tablatures   partitions/Tablatures Icon_minitimeVen 20 Juil - 20:32

Je l'ai entière si vous voulez dite le moi et je la poste.

_________________
partitions/Tablatures 1184690583_680344836_small
Tout vien à point à qui sait attendre...
Revenir en haut Aller en bas
http://e-monsite.com/tokio--hotel
bartrockeur94

bartrockeur94

Messages : 18
Date d'inscription : 19/07/2007
Age : 27
Localisation : à Malte avec le soleil et les nanas

partitions/Tablatures Empty
MessageSujet: Re: partitions/Tablatures   partitions/Tablatures Icon_minitimeVen 20 Juil - 20:47

ben en gros c ça mais j'suis pas sûr de moi:

e!---0------0--0--0---0---0---0-0--0---0---0----0-0-0-0--0-0-0--0--0
B!---8/10-10-12-12-12--6/8-8-10-10-10--5/6-6-8-8-8--3-3-15-15-15
G!---7/9---9--11-11-11--5/7-7-9--9--9----4/5-5-7-7-7--2-2-14-14-14
D!---0------0--0--0---0---0---0-0--0--0----0----0-0-0-0--0-0-0--0--0
A!---------------------------------------------------------------------------
E!----------------------------------------------------------------------------

voilou bonne gratte!
Revenir en haut Aller en bas
t0kii0h0t3l



Messages : 3
Date d'inscription : 20/07/2007

partitions/Tablatures Empty
MessageSujet: Re: partitions/Tablatures   partitions/Tablatures Icon_minitimeVen 20 Juil - 21:06

dow-th a écrit:
Je l'ai entière si vous voulez dite le moi et je la poste.
*

J'aimerais l'avoir en entier si c'est possible Wink merci
Revenir en haut Aller en bas
x-s0onia21-x

x-s0onia21-x

Messages : 52
Date d'inscription : 18/07/2007
Age : 31
Localisation : Lille (59)

partitions/Tablatures Empty
MessageSujet: Pour Dow-th   partitions/Tablatures Icon_minitimeSam 21 Juil - 17:44

Dow-th tu aurai la mélodie entière de In die Nacht ? Si oui tu peux noté les notes stp en nimporte kelle clé Wink
Revenir en haut Aller en bas
http://fic-th-fs.skyblog.com
dow-th

dow-th

Messages : 68
Date d'inscription : 17/07/2007
Age : 27
Localisation : 94120

partitions/Tablatures Empty
MessageSujet: Re: partitions/Tablatures   partitions/Tablatures Icon_minitimeSam 21 Juil - 21:58


Bon désolé la tab est grave décalé mais j'ai trop la flemme de la réajuster'



Intro:

E|-----------------------------------------------------------|
B|-----------------------------------------------------------|
G|-----------------------------------------------------------|
D|-----------------------------------------------------------| x1
A|-8/9-9-11-11-11---5/7-7-9-9-9---4/5-5-7-7-7------9-9-9-----|
E|---------------------------------------------7-7-----------|


Couplet:

E|-----------------------------------------------------------|
B|-----------------------------------------------------------|
G|-----------------------------------------------------------|
D|-----------------------------------------------------------| x3
A|-8/9-9-11-11-11---5/7-7-9-9-9---4/5-5-7-7-7------9-9-9-----|
E|---------------------------------------------7-7-----------|


E|-----------------------------------------------------------|
B|-----------------------------------------------------------|
G|-----------------------------------------------------------|
D|-----------------------------------------------------------| x1
A|-8/9-9-11-11-11---5/7-7-9-9-9---4/5-5-7-7-7----------------|
E|---------------------------------------------7-7-7-7-7-----|


Refrain:

E|--------------------------------------------------|
B|--------------------------------------------------|
G|-7-7-7-7-7----------------------------------------|
D|-7-7-7-7-7--7-7-7-7-7--4-4-4-4-4--2-2-2-2-2-------| x1
A|-5-5-5-5-5--7-7-7-7-7--4-4-4-4-4--2-2-2-2-2-------|
E|------------5-5-5-5-5--2-2-2-2-2--0-0-0-0-0-------|


E|-------------------------------------------------------------------------------------------|
B|-------------------------------------------------------------------------------------------|
G|-7-7-7-7-7---------------------------------------------------------------------------------|
D|-7-7-7-7-7--7-7-7-7-7--4-4-4-4-4-----------------------------------------------------------| x1
A|-5-5-5-5-5--7-7-7-7-7--4-4-4-4-4--8/9-9-11-11-11--5/7-7-9-9-9--4/5-5-7-7-7-------9-9-9-----|
E|------------5-5-5-5-5--2-2-2-2-2--------------------------------------------7-7------------|


Couplet:

E|-----------------------------------------------------------|
B|-----------------------------------------------------------|
G|-----------------------------------------------------------|
D|-----------------------------------------------------------| x1
A|-8/9-9-11-11-11---5/7-7-9-9-9---4/5-5-7-7-7------9-9-9-----|
E|---------------------------------------------7-7-----------|




E|-------------------------------------------------------|
B|-------------------------------------------------------|
G|-------------------------------------------------------|
D|-------------------------------------------------------| x1
A|-8/9-9-11-11-11---5/7-7-9-9-9---4/5-5-7-7-7------------|
E|---------------------------------------------7-7-7-7-7-|


Refrain:

E|---------------------------------------------------|
B|---------------------------------------------------|
G|-7-7-7-7-7-----------------------------------------|
D|-7-7-7-7-7--7-7-7-7-7--4-4-4-4-4--2-2-2-2-2--------| x1
A|-5-5-5-5-5--7-7-7-7-7--4-4-4-4-4--2-2-2-2-2--------|
E|------------5-5-5-5-5--2-2-2-2-2--0-0-0-0-0--------|


E|----------------------------------------------------------------|
B|----------------------------------------------------------------|
G|-7-7-7-7-7------------------------------------------------------|
D|-7-7-7-7-7--7-7-7-7-7--4-4-4-4-4--------------------------------| x1
A|-5-5-5-5-5--7-7-7-7-7--4-4-4-4-4--8/9-11-11-11--8/9-11-11-11----|
E|------------5-5-5-5-5--2-2-2-2-2--------------------------------|

E|----------------------------------------------|
B|----------------------------------------------|
G|----------------------------------------------|
D|-9-9-9-9-9--12-12-12-12-12--9-9-9-9-9-9--7----| x1
A|-9-9-9-9-9--12-12-12-12-12--9-9-9-9-9-9--7----|
E|-7-7-7-7-7--10-10-10-10-10--7-7-7-7-7-7--5----|


E|----------------------------------------------------|
B|----------------------------------------------------|
G|-11--9-9---11--9-9----11--9-9----11----11-11-11-11--|
D|-11--9-9---11--9-9----11--9-9----11----11-11-11-11--| x1
A|-9---7-7---9---7-7----9---7-7----9-----9--9--9--9---|
E|----------------------------------------------------|


E|-------------------------------------------------|
B|-------------------------------------------------|
G|-7-7-7-7-7---------------------------------------|
D|-7-7-7-7-7--7-7-7-7-7--4-4-4-4-4-----------------| x2
A|-5-5-5-5-5--7-7-7-7-7--4-4-4-4-4--8/9-11-11-11---|
E|------------5-5-5-5-5--2-2-2-2-2-----------------|


E|----------------------------------------------------------------|
B|----------------------------------------------------------------|
G|-7-7-7-7-7------------------------------------------------------|
D|-7-7-7-7-7--7-7-7-7-7--4-4-4-4-4--------------------------------| x1
A|-5-5-5-5-5--7-7-7-7-7--4-4-4-4-4--8/9-11-11-11---8/9-11-11-11---|
E|------------5-5-5-5-5--2-2-2-2-2--------------------------------|


E|------------------------------------------------|
B|------------------------------------------------|
G|------------------------------------------------|
D|--------------------------------------------6---| x1
A|-8/9-11-11-11---5/7-7-9-9-9---4/5-5-7-7-7---7---|
E|--------------------------------------------7---|



ps:euh désolé j'ai dit que j'avait la tablature et non la partition^^
sinon ce que tu peut essayer de faire,c'est de la faire jouer à quelqu'un que tu connait qui joue de la guitare et tu essaie de reconnaitre les notes!

En général ce qui joue de la guitare ne savent qu'écrire en tablature et ne conaissent pas le solfège!

_________________
partitions/Tablatures 1184690583_680344836_small
Tout vien à point à qui sait attendre...
Revenir en haut Aller en bas
http://e-monsite.com/tokio--hotel
x-s0onia21-x

x-s0onia21-x

Messages : 52
Date d'inscription : 18/07/2007
Age : 31
Localisation : Lille (59)

partitions/Tablatures Empty
MessageSujet: :s   partitions/Tablatures Icon_minitimeDim 22 Juil - 11:38

Tkt c'est pas grave je me débrouillerai autrement ;)Bisou
Revenir en haut Aller en bas
http://fic-th-fs.skyblog.com
bartrockeur94

bartrockeur94

Messages : 18
Date d'inscription : 19/07/2007
Age : 27
Localisation : à Malte avec le soleil et les nanas

partitions/Tablatures Empty
MessageSujet: Re: partitions/Tablatures   partitions/Tablatures Icon_minitimeDim 22 Juil - 12:31

j'avoue elle est bien décalée ta tab mais bon, au moins elle est entière
Revenir en haut Aller en bas
t0kii0h0t3l



Messages : 3
Date d'inscription : 20/07/2007

partitions/Tablatures Empty
MessageSujet: Re: partitions/Tablatures   partitions/Tablatures Icon_minitimeDim 22 Juil - 22:41

x-s0onia21-x a écrit:
Dow-th tu aurai la mélodie entière de In die Nacht ? Si oui tu peux noté les notes stp en nimporte kelle clé Wink

Moi je joue de la guitare et du piano je peut t'écrire les notes graçe a la tablature....

Ps: merci pr la tab Wink
Revenir en haut Aller en bas
x-s0onia21-x

x-s0onia21-x

Messages : 52
Date d'inscription : 18/07/2007
Age : 31
Localisation : Lille (59)

partitions/Tablatures Empty
MessageSujet: Re: partitions/Tablatures   partitions/Tablatures Icon_minitimeLun 23 Juil - 13:26

Citation :
Moi je joue de la guitare et du piano je peut t'écrire les notes graçe a la tablature....

Tu peux alors stp ?? Si oui tu me sauve la vie ^^ Ptdr!
Revenir en haut Aller en bas
http://fic-th-fs.skyblog.com
Contenu sponsorisé




partitions/Tablatures Empty
MessageSujet: Re: partitions/Tablatures   partitions/Tablatures Icon_minitime

Revenir en haut Aller en bas
 
partitions/Tablatures
Revenir en haut 
Page 1 sur 1

Permission de ce forum:Vous ne pouvez pas répondre aux sujets dans ce forum
Tokio hotel forum :: Tablatures-
Sauter vers:  
Ne ratez plus aucun deal !
Abonnez-vous pour recevoir par notification une sélection des meilleurs deals chaque jour.
IgnorerAutoriser